  0
SECTION
  2
HEADER
  9
$ACADVER
  1
AC1015
  9
$ACADMAINTVER
 70
     6
  9
$DWGCODEPAGE
  3
ANSI_1254
  9
$INSBASE
 10
0.0
 20
0.0
 30
0.0
  9
$EXTMIN
 10
0.0
 20
0.0
 30
0.0
  9
$EXTMAX
 10
279.4
 20
215.9
 30
0.0
  9
$LIMMIN
 10
0.0
 20
0.0
  9
$LIMMAX
 10
279.4
 20
215.9
  9
$ORTHOMODE
 70
     0
  9
$REGENMODE
 70
     1
  9
$FILLMODE
 70
     1
  9
$QTEXTMODE
 70
     0
  9
$MIRRTEXT
 70
     1
  9
$LTSCALE
 40
1.0
  9
$ATTMODE
 70
     1
  9
$TEXTSIZE
 40
3.5
  9
$TRACEWID
 40
1.0
  9
$TEXTSTYLE
  7
Standard
  9
$CLAYER
  8
0
  9
$CELTYPE
  6
ByLayer
  9
$CECOLOR
 62
   256
  9
$CELTSCALE
 40
1.0
  9
$DISPSILH
 70
     0
  9
$DIMSCALE
 40
1.0
  9
$DIMASZ
 40
3.5
  9
$DIMEXO
 40
1.0
  9
$DIMDLI
 40
3.75
  9
$DIMRND
 40
0.0
  9
$DIMDLE
 40
0.0
  9
$DIMEXE
 40
1.0
  9
$DIMTP
 40
0.0
  9
$DIMTM
 40
0.0
  9
$DIMTXT
 40
3.5
  9
$DIMCEN
 40
2.5
  9
$DIMTSZ
 40
0.0
  9
$DIMTOL
 70
     0
  9
$DIMLIM
 70
     0
  9
$DIMTIH
 70
     1
  9
$DIMTOH
 70
     1
  9
$DIMSE1
 70
     0
  9
$DIMSE2
 70
     0
  9
$DIMTAD
 70
     1
  9
$DIMZIN
 70
     0
  9
$DIMBLK
  1

  9
$DIMASO
 70
     1
  9
$DIMSHO
 70
     1
  9
$DIMPOST
  1

  9
$DIMAPOST
  1

  9
$DIMALT
 70
     0
  9
$DIMALTD
 70
     3
  9
$DIMALTF
 40
0.0393700787
  9
$DIMLFAC
 40
1.0
  9
$DIMTOFL
 70
     1
  9
$DIMTVP
 40
0.0
  9
$DIMTIX
 70
     0
  9
$DIMSOXD
 70
     0
  9
$DIMSAH
 70
     0
  9
$DIMBLK1
  1

  9
$DIMBLK2
  1

  9
$DIMSTYLE
  2
ISO-25
  9
$DIMCLRD
 70
     0
  9
$DIMCLRE
 70
     0
  9
$DIMCLRT
 70
     0
  9
$DIMTFAC
 40
1.0
  9
$DIMGAP
 40
1.524
  9
$DIMJUST
 70
     0
  9
$DIMSD1
 70
     0
  9
$DIMSD2
 70
     0
  9
$DIMTOLJ
 70
     0
  9
$DIMTZIN
 70
     0
  9
$DIMALTZ
 70
     0
  9
$DIMALTTZ
 70
     0
  9
$DIMUPT
 70
     0
  9
$DIMDEC
 70
     2
  9
$DIMTDEC
 70
     2
  9
$DIMALTU
 70
     2
  9
$DIMALTTD
 70
     3
  9
$DIMTXSTY
  7
Standard
  9
$DIMAUNIT
 70
     0
  9
$DIMADEC
 70
     2
  9
$DIMALTRND
 40
0.0
  9
$DIMAZIN
 70
     0
  9
$DIMDSEP
 70
    44
  9
$DIMATFIT
 70
     3
  9
$DIMFRAC
 70
     0
  9
$DIMLDRBLK
  1

  9
$DIMLUNIT
 70
     2
  9
$DIMLWD
 70
    -2
  9
$DIMLWE
 70
    -2
  9
$DIMTMOVE
 70
     0
  9
$LUNITS
 70
     2
  9
$LUPREC
 70
     2
  9
$SKETCHINC
 40
1.0
  9
$FILLETRAD
 40
10.0
  9
$AUNITS
 70
     0
  9
$AUPREC
 70
     2
  9
$MENU
  1
.
  9
$ELEVATION
 40
0.0
  9
$PELEVATION
 40
0.0
  9
$THICKNESS
 40
0.0
  9
$LIMCHECK
 70
     0
  9
$CHAMFERA
 40
0.0
  9
$CHAMFERB
 40
0.0
  9
$CHAMFERC
 40
0.0
  9
$CHAMFERD
 40
0.0
  9
$SKPOLY
 70
     0
  9
$TDCREATE
 40
2458985.705644248
  9
$TDUCREATE
 40
2458985.580644248
  9
$TDUPDATE
 40
2458985.705644896
  9
$TDUUPDATE
 40
2458985.580644896
  9
$TDINDWG
 40
0.0000000116
  9
$TDUSRTIMER
 40
0.0000000116
  9
$USRTIMER
 70
     1
  9
$ANGBASE
 50
0.0
  9
$ANGDIR
 70
     0
  9
$PDMODE
 70
     0
  9
$PDSIZE
 40
-1.0
  9
$PLINEWID
 40
0.0
  9
$SPLFRAME
 70
     0
  9
$SPLINETYPE
 70
     6
  9
$SPLINESEGS
 70
     8
  9
$HANDSEED
  5
EF
  9
$SURFTAB1
 70
     6
  9
$SURFTAB2
 70
     6
  9
$SURFTYPE
 70
     6
  9
$SURFU
 70
     6
  9
$SURFV
 70
     6
  9
$UCSBASE
  2

  9
$UCSNAME
  2

  9
$UCSORG
 10
0.0
 20
0.0
 30
0.0
  9
$UCSXDIR
 10
1.0
 20
0.0
 30
0.0
  9
$UCSYDIR
 10
0.0
 20
1.0
 30
0.0
  9
$UCSORTHOREF
  2

  9
$UCSORTHOVIEW
 70
     0
  9
$UCSORGTOP
 10
0.0
 20
0.0
 30
0.0
  9
$UCSORGBOTTOM
 10
0.0
 20
0.0
 30
0.0
  9
$UCSORGLEFT
 10
0.0
 20
0.0
 30
0.0
  9
$UCSORGRIGHT
 10
0.0
 20
0.0
 30
0.0
  9
$UCSORGFRONT
 10
0.0
 20
0.0
 30
0.0
  9
$UCSORGBACK
 10
0.0
 20
0.0
 30
0.0
  9
$PUCSBASE
  2

  9
$PUCSNAME
  2

  9
$PUCSORG
 10
0.0
 20
0.0
 30
0.0
  9
$PUCSXDIR
 10
1.0
 20
0.0
 30
0.0
  9
$PUCSYDIR
 10
0.0
 20
1.0
 30
0.0
  9
$PUCSORTHOREF
  2

  9
$PUCSORTHOVIEW
 70
     0
  9
$PUCSORGTOP
 10
0.0
 20
0.0
 30
0.0
  9
$PUCSORGBOTTOM
 10
0.0
 20
0.0
 30
0.0
  9
$PUCSORGLEFT
 10
0.0
 20
0.0
 30
0.0
  9
$PUCSORGRIGHT
 10
0.0
 20
0.0
 30
0.0
  9
$PUCSORGFRONT
 10
0.0
 20
0.0
 30
0.0
  9
$PUCSORGBACK
 10
0.0
 20
0.0
 30
0.0
  9
$USERI1
 70
     0
  9
$USERI2
 70
     0
  9
$USERI3
 70
     0
  9
$USERI4
 70
     0
  9
$USERI5
 70
     0
  9
$USERR1
 40
0.0
  9
$USERR2
 40
0.0
  9
$USERR3
 40
0.0
  9
$USERR4
 40
0.0
  9
$USERR5
 40
0.0
  9
$WORLDVIEW
 70
     1
  9
$SHADEDGE
 70
     3
  9
$SHADEDIF
 70
    70
  9
$TILEMODE
 70
     1
  9
$MAXACTVP
 70
    64
  9
$PINSBASE
 10
0.0
 20
0.0
 30
0.0
  9
$PLIMCHECK
 70
     0
  9
$PEXTMIN
 10
1.0000000000E+20
 20
1.0000000000E+20
 30
1.0000000000E+20
  9
$PEXTMAX
 10
-1.0000000000E+20
 20
-1.0000000000E+20
 30
-1.0000000000E+20
  9
$PLIMMIN
 10
0.0
 20
0.0
  9
$PLIMMAX
 10
420.0
 20
297.0
  9
$UNITMODE
 70
     0
  9
$VISRETAIN
 70
     1
  9
$PLINEGEN
 70
     0
  9
$PSLTSCALE
 70
     1
  9
$TREEDEPTH
 70
  3020
  9
$CMLSTYLE
  2
Standard
  9
$CMLJUST
 70
     0
  9
$CMLSCALE
 40
20.0
  9
$PROXYGRAPHICS
 70
     1
  9
$MEASUREMENT
 70
     1
  9
$CELWEIGHT
370
    -1
  9
$ENDCAPS
280
     0
  9
$JOINSTYLE
280
     0
  9
$LWDISPLAY
290
     1
  9
$INSUNITS
 70
     4
  9
$HYPERLINKBASE
  1

  9
$STYLESHEET
  1

  9
$XEDIT
290
     1
  9
$CEPSNTYPE
380
     0
  9
$PSTYLEMODE
290
     1
  9
$FINGERPRINTGUID
  2
{f6cf2793-956b-4655-95a4-4a38f28f1f2d}
  9
$VERSIONGUID
  2
{FAEB1C32-E019-11D5-929B-00C0DF256EC4}
  9
$EXTNAMES
290
     1
  9
$PSVPSCALE
 40
0.0
  9
$OLESTARTUP
290
     0
  0
ENDSEC
  0
SECTION
  2
CLASSES
  0
CLASS
  1
ACDBDICTIONARYWDFLT
  2
AcDbDictionaryWithDefault
  3
ObjectDBX Classes
 90
        0
280
     0
281
     0
  0
CLASS
  1
VISUALSTYLE
  2
AcDbVisualStyle
  3
ObjectDBX Classes
 90
     4095
280
     0
281
     0
  0
CLASS
  1
MATERIAL
  2
AcDbMaterial
  3
ObjectDBX Classes
 90
     1153
280
     0
281
     0
  0
CLASS
  1
SCALE
  2
AcDbScale
  3
ObjectDBX Classes
 90
     1153
280
     0
281
     0
  0
CLASS
  1
TABLESTYLE
  2
AcDbTableStyle
  3
ObjectDBX Classes
 90
     4095
280
     0
281
     0
  0
CLASS
  1
MLEADERSTYLE
  2
AcDbMLeaderStyle
  3
ACDB_MLEADERSTYLE_CLASS
 90
     4095
280
     0
281
     0
  0
CLASS
  1
SUN
  2
AcDbSun
  3
SCENEOE
 90
     1153
280
     0
281
     0
  0
CLASS
  1
ACDBPLACEHOLDER
  2
AcDbPlaceHolder
  3
ObjectDBX Classes
 90
        0
280
     0
281
     0
  0
CLASS
  1
LAYOUT
  2
AcDbLayout
  3
ObjectDBX Classes
 90
        0
280
     0
281
     0
  0
ENDSEC
  0
SECTION
  2
TABLES
  0
TABLE
  2
VPORT
  5
8
330
0
100
AcDbSymbolTable
 70
     1
  0
VPORT
  5
29
330
8
100
AcDbSymbolTableRecord
100
AcDbViewportTableRecord
  2
*Active
 70
     0
 10
0.0
 20
0.0
 11
1.0
 21
1.0
 12
139.7
 22
107.95
 13
0.0
 23
0.0
 14
10.0
 24
10.0
 15
10.0
 25
10.0
 16
0.0
 26
0.0
 36
1.0
 17
0.0
 27
0.0
 37
0.0
 40
215.9
 41
1.2941176471
 42
50.0
 43
0.0
 44
0.0
 50
0.0
 51
0.0
 71
     0
 72
  2000
 73
     1
 74
     3
 75
     0
 76
     0
 77
     0
 78
     0
281
     0
 65
     1
110
0.0
120
0.0
130
0.0
111
1.0
121
0.0
131
0.0
112
0.0
122
1.0
132
0.0
 79
     0
146
0.0
  0
ENDTAB
  0
TABLE
  2
LTYPE
  5
5
330
0
100
AcDbSymbolTable
 70
     6
  0
LTYPE
  5
14
330
5
100
AcDbSymbolTableRecord
100
AcDbLinetypeTableRecord
  2
ByBlock
 70
     0
  3

 72
    65
 73
     0
 40
0.0
  0
LTYPE
  5
15
330
5
100
AcDbSymbolTableRecord
100
AcDbLinetypeTableRecord
  2
ByLayer
 70
     0
  3

 72
    65
 73
     0
 40
0.0
  0
LTYPE
  5
16
330
5
100
AcDbSymbolTableRecord
100
AcDbLinetypeTableRecord
  2
Continuous
 70
     0
  3
Solid line
 72
    65
 73
     0
 40
0.0
  0
LTYPE
  5
6E
330
5
100
AcDbSymbolTableRecord
100
AcDbLinetypeTableRecord
  2
HIDDEN
 70
     0
  3
Hidden __ __ __ __ __ __ __ __ __ __ __ __ __ __
 72
    65
 73
     2
 40
1.905
 49
1.27
 74
     0
 49
-0.635
 74
     0
  0
LTYPE
  5
6F
330
5
100
AcDbSymbolTableRecord
100
AcDbLinetypeTableRecord
  2
PHANTOM
 70
     0
  3
Phantom ______  __  __  ______  __  __  ______
 72
    65
 73
     6
 40
12.7
 49
6.35
 74
     0
 49
-1.27
 74
     0
 49
1.27
 74
     0
 49
-1.27
 74
     0
 49
1.27
 74
     0
 49
-1.27
 74
     0
  0
LTYPE
  5
70
330
5
100
AcDbSymbolTableRecord
100
AcDbLinetypeTableRecord
  2
CENTER
 70
     0
  3
Center ____ _ ____ _ ____ _ ____ _ ____ _ ____
 72
    65
 73
     4
 40
10.16
 49
6.35
 74
     0
 49
-1.27
 74
     0
 49
1.27
 74
     0
 49
-1.27
 74
     0
  0
LTYPE
  5
71
330
5
100
AcDbSymbolTableRecord
100
AcDbLinetypeTableRecord
  2
CENTERX2
 70
     0
  3
Center (2x) ________  __  ________  __  _____
 72
    65
 73
     4
 40
20.32
 49
12.7
 74
     0
 49
-2.54
 74
     0
 49
2.54
 74
     0
 49
-2.54
 74
     0
  0
LTYPE
  5
72
330
5
100
AcDbSymbolTableRecord
100
AcDbLinetypeTableRecord
  2
DOT2
 70
     0
  3
Dot (.5x) ........................................
 72
    65
 73
     2
 40
0.635
 49
0.0
 74
     0
 49
-0.635
 74
     0
  0
ENDTAB
  0
TABLE
  2
LAYER
  5
2
330
0
100
AcDbSymbolTable
 70
    17
  0
LAYER
  5
10
330
2
100
AcDbSymbolTableRecord
100
AcDbLayerTableRecord
  2
0
 70
     0
 62
     7
  6
Continuous
370
    -3
390
F
  0
LAYER
  5
73
330
2
100
AcDbSymbolTableRecord
100
AcDbLayerTableRecord
  2
FORMAT
 70
     0
 62
     7
  6
Continuous
370
    -3
390
F
  0
LAYER
  5
74
330
2
100
AcDbSymbolTableRecord
100
AcDbLayerTableRecord
  2
YARDIMCI_GEOMETRI
 70
     0
 62
    -6
  6
Continuous
290
     0
370
    -3
390
F
  0
LAYER
  5
75
330
2
100
AcDbSymbolTableRecord
100
AcDbLayerTableRecord
  2
SAYFA_CERCEVESI
 70
     0
 62
     7
  6
Continuous
370
    25
390
F
  0
LAYER
  5
76
330
2
100
AcDbSymbolTableRecord
100
AcDbLayerTableRecord
  2
ANTET
 70
     0
 62
     7
  6
Continuous
370
    -3
390
F
  0
LAYER
  5
77
330
2
100
AcDbSymbolTableRecord
100
AcDbLayerTableRecord
  2
OLCU
 70
     0
 62
   150
  6
Continuous
370
    -3
390
F
  0
LAYER
  5
78
330
2
100
AcDbSymbolTableRecord
100
AcDbLayerTableRecord
  2
METIN
 70
     0
 62
    96
  6
Continuous
370
    -3
390
F
  0
LAYER
  5
79
330
2
100
AcDbSymbolTableRecord
100
AcDbLayerTableRecord
  2
BALON
 70
     0
 62
     5
  6
Continuous
370
    -3
390
F
  0
LAYER
  5
7A
330
2
100
AcDbSymbolTableRecord
100
AcDbLayerTableRecord
  2
VURGU
 70
     0
 62
     7
  6
Continuous
370
    -3
390
F
  0
LAYER
  5
7B
330
2
100
AcDbSymbolTableRecord
100
AcDbLayerTableRecord
  2
SILIK
 70
     0
 62
     7
  6
Continuous
370
    -3
390
F
  0
LAYER
  5
7C
330
2
100
AcDbSymbolTableRecord
100
AcDbLayerTableRecord
  2
MODEL
 70
     0
 62
     7
  6
Continuous
370
    -3
390
F
  0
LAYER
  5
7D
330
2
100
AcDbSymbolTableRecord
100
AcDbLayerTableRecord
  2
DETAYLANDıRMA
 70
     0
 62
   190
  6
Continuous
370
    -3
390
F
  0
LAYER
  5
7E
330
2
100
AcDbSymbolTableRecord
100
AcDbLayerTableRecord
  2
TOLERANS
 70
     0
 62
   230
  6
Continuous
370
    -3
390
F
  0
LAYER
  5
7F
330
2
100
AcDbSymbolTableRecord
100
AcDbLayerTableRecord
  2
MERKEZ_CIZGILERI
 70
     0
 62
    30
  6
Continuous
370
    -3
390
F
  0
LAYER
  5
80
330
2
100
AcDbSymbolTableRecord
100
AcDbLayerTableRecord
  2
KESIT-DETAY_CIZGILERI
 70
     0
 62
     7
  6
Continuous
370
    -3
390
F
  0
LAYER
  5
81
330
2
100
AcDbSymbolTableRecord
100
AcDbLayerTableRecord
  2
\U+041E\U+0421\U+0415\U+0412\U+042B\U+0415
 70
     0
 62
     7
  6
Continuous
370
    -3
390
F
  0
LAYER
  5
82
330
2
100
AcDbSymbolTableRecord
100
AcDbLayerTableRecord
  2
\U+0412\U+041E\U+0414\U+042F\U+041D\U+042B\U+0415_\U+0417\U+041D\U+0410\U+041A\U+0418
 70
     0
 62
    11
  6
Continuous
370
    -3
390
F
  0
ENDTAB
  0
TABLE
  2
STYLE
  5
3
330
0
100
AcDbSymbolTable
 70
     1
  0
STYLE
  5
11
330
3
100
AcDbSymbolTableRecord
100
AcDbTextStyleTableRecord
  2
Standard
 70
     0
 40
0.0
 41
1.0
 50
0.0
 71
     0
 42
3.5
  3
txt
  4

  0
ENDTAB
  0
TABLE
  2
VIEW
  5
6
330
0
100
AcDbSymbolTable
 70
     0
  0
ENDTAB
  0
TABLE
  2
UCS
  5
7
330
0
100
AcDbSymbolTable
 70
     0
  0
ENDTAB
  0
TABLE
  2
APPID
  5
9
330
0
100
AcDbSymbolTable
 70
     1
  0
APPID
  5
12
330
9
100
AcDbSymbolTableRecord
100
AcDbRegAppTableRecord
  2
ACAD
 70
     0
  0
ENDTAB
  0
TABLE
  2
DIMSTYLE
  5
A
330
0
100
AcDbSymbolTable
 70
     1
100
AcDbDimStyleTable
  0
DIMSTYLE
105
27
330
A
100
AcDbSymbolTableRecord
100
AcDbDimStyleTableRecord
  2
ISO-25
 70
     0
 41
2.5
 42
0.625
 43
3.75
 44
1.25
 73
     0
 74
     0
 77
     1
 78
     8
140
2.5
141
2.5
143
0.0393700787
147
0.625
171
     3
172
     1
178
     0
271
     2
272
     2
274
     3
278
    44
283
     0
284
     8
340
11
  0
ENDTAB
  0
TABLE
  2
BLOCK_RECORD
  5
1
330
0
100
AcDbSymbolTable
 70
     2
  0
BLOCK_RECORD
  5
1F
330
1
100
AcDbSymbolTableRecord
100
AcDbBlockTableRecord
  2
*Model_Space
340
22
  0
BLOCK_RECORD
  5
1B
330
1
100
AcDbSymbolTableRecord
100
AcDbBlockTableRecord
  2
*Paper_Space
340
1E
  0
BLOCK_RECORD
  5
23
330
1
100
AcDbSymbolTableRecord
100
AcDbBlockTableRecord
  2
*Paper_Space0
340
26
  0
BLOCK_RECORD
  5
88
330
1
100
AcDbSymbolTableRecord
100
AcDbBlockTableRecord
  2
SW_CENTERMARKSYMBOL_0
340
0
102
{BLKREFS
331
93
102
}
  0
ENDTAB
  0
ENDSEC
  0
SECTION
  2
BLOCKS
  0
BLOCK
  5
20
330
1F
100
AcDbEntity
  8
0
100
AcDbBlockBegin
  2
*Model_Space
 70
     0
 10
0.0
 20
0.0
 30
0.0
  3
*Model_Space
  1

  0
ENDBLK
  5
21
330
1F
100
AcDbEntity
  8
0
100
AcDbBlockEnd
  0
BLOCK
  5
1C
330
1B
100
AcDbEntity
 67
     1
  8
0
100
AcDbBlockBegin
  2
*Paper_Space
 70
     0
 10
0.0
 20
0.0
 30
0.0
  3
*Paper_Space
  1

  0
ENDBLK
  5
1D
330
1B
100
AcDbEntity
 67
     1
  8
0
100
AcDbBlockEnd
  0
BLOCK
  5
24
330
23
100
AcDbEntity
  8
0
100
AcDbBlockBegin
  2
*Paper_Space0
 70
     0
 10
0.0
 20
0.0
 30
0.0
  3
*Paper_Space0
  1

  0
ENDBLK
  5
25
330
23
100
AcDbEntity
  8
0
100
AcDbBlockEnd
  0
BLOCK
  5
89
330
88
100
AcDbEntity
  8
0
100
AcDbBlockBegin
  2
SW_CENTERMARKSYMBOL_0
 70
     0
 10
0.0
 20
0.0
 30
0.0
  3
SW_CENTERMARKSYMBOL_0
  1

  0
LINE
  5
8B
330
88
100
AcDbEntity
  8
FORMAT
 62
     0
100
AcDbLine
 10
0.0
 20
0.0
 30
0.0
 11
0.0
 21
2.5
 31
0.0
  0
LINE
  5
8C
330
88
100
AcDbEntity
  8
FORMAT
 62
     0
100
AcDbLine
 10
0.0
 20
0.0
 30
0.0
 11
-2.5
 21
0.0
 31
0.0
  0
LINE
  5
8D
330
88
100
AcDbEntity
  8
FORMAT
 62
     0
100
AcDbLine
 10
0.0
 20
0.0
 30
0.0
 11
0.0
 21
-2.5
 31
0.0
  0
LINE
  5
8E
330
88
100
AcDbEntity
  8
FORMAT
 62
     0
100
AcDbLine
 10
0.0
 20
0.0
 30
0.0
 11
2.5
 21
0.0
 31
0.0
  0
LINE
  5
8F
330
88
100
AcDbEntity
  8
FORMAT
 62
     0
100
AcDbLine
 10
0.0
 20
5.0
 30
0.0
 11
0.0
 21
82.5
 31
0.0
  0
LINE
  5
90
330
88
100
AcDbEntity
  8
FORMAT
 62
     0
100
AcDbLine
 10
-5.0
 20
0.0
 30
0.0
 11
-82.5
 21
0.0
 31
0.0
  0
LINE
  5
91
330
88
100
AcDbEntity
  8
FORMAT
 62
     0
100
AcDbLine
 10
0.0
 20
-5.0
 30
0.0
 11
0.0
 21
-82.5
 31
0.0
  0
LINE
  5
92
330
88
100
AcDbEntity
  8
FORMAT
 62
     0
100
AcDbLine
 10
5.0
 20
0.0
 30
0.0
 11
82.5
 21
0.0
 31
0.0
  0
ENDBLK
  5
8A
330
88
100
AcDbEntity
  8
0
100
AcDbBlockEnd
  0
ENDSEC
  0
SECTION
  2
ENTITIES
  0
CIRCLE
  5
83
330
1F
100
AcDbEntity
  8
0
  6
Continuous
 62
     7
370
    25
100
AcDbCircle
 10
136.0804557792
 20
118.8813202377
 30
0.0
 40
80.0
  0
CIRCLE
  5
84
330
1F
100
AcDbEntity
  8
0
  6
Continuous
 62
     7
370
    25
100
AcDbCircle
 10
136.0804557792
 20
118.8813202377
 30
0.0
 40
70.50000000000001
  0
CIRCLE
  5
85
330
1F
100
AcDbEntity
  8
0
  6
Continuous
 62
     7
370
    25
100
AcDbCircle
 10
136.0804557792
 20
118.8813202377
 30
0.0
 40
70.41934955049953
  0
CIRCLE
  5
86
330
1F
100
AcDbEntity
  8
0
  6
Continuous
 62
     7
370
    25
100
AcDbCircle
 10
136.0804557792
 20
118.8813202377
 30
0.0
 40
61.78065044950048
  0
CIRCLE
  5
87
330
1F
100
AcDbEntity
  8
0
  6
Continuous
 62
     7
370
    25
100
AcDbCircle
 10
136.0804557792
 20
118.8813202377
 30
0.0
 40
61.70000000000002
  0
INSERT
  5
93
330
1F
100
AcDbEntity
  8
FORMAT
 62
     7
100
AcDbBlockReference
  2
SW_CENTERMARKSYMBOL_0
 10
136.0804557792
 20
118.8813202377
 30
0.0
  0
LINE
  5
94
330
1F
100
AcDbEntity
  8
0
  6
Continuous
 62
     7
370
    25
100
AcDbLine
 10
-180.5417369341
 20
198.8813184496
 30
0.0
 11
-278.3613949304
 21
198.8813184496
 31
0.0
  0
LINE
  5
95
330
1F
100
AcDbEntity
  8
0
  6
Continuous
 62
     7
370
    25
100
AcDbLine
 10
-278.3613949304
 20
38.8813220259
 30
0.0
 11
-180.5417369341
 21
38.8813220259
 31
0.0
  0
ARC
  5
96
330
1F
100
AcDbEntity
  8
0
  6
Continuous
 62
     7
370
    25
100
AcDbCircle
 10
-180.541737512
 20
196.8813202377
 30
0.0
 40
2.000000000000009
100
AcDbArc
 50
79.6951535312
 51
90.0
  0
ARC
  5
97
330
1F
100
AcDbEntity
  8
0
  6
Continuous
 62
     7
370
    25
100
AcDbCircle
 10
-180.541737512
 20
40.8813202377
 30
0.0
 40
1.999999999999989
100
AcDbArc
 50
270.0
 51
280.3048464688
  0
LINE
  5
98
330
1F
100
AcDbEntity
  8
0
  6
Continuous
 62
     7
370
    25
100
AcDbLine
 10
-180.1839675044
 20
38.9135830398
 30
0.0
 11
-125.5388277804
 21
48.8490589257
 31
0.0
  0
LINE
  5
99
330
1F
100
AcDbEntity
  8
0
  6
Continuous
 62
     7
370
    25
100
AcDbLine
 10
-125.5388277804
 20
188.9135815497
 30
0.0
 11
-180.1839675044
 21
198.8490574356
 31
0.0
  0
ARC
  5
9A
330
1F
100
AcDbEntity
  8
0
  6
Continuous
 62
     7
370
    25
100
AcDbCircle
 10
-125.181057737
 20
190.8813202377
 30
0.0
 40
2.000000000000007
100
AcDbArc
 50
259.6951535312
 51
270.0
  0
ARC
  5
9B
330
1F
100
AcDbEntity
  8
0
  6
Continuous
 62
     7
370
    25
100
AcDbCircle
 10
-125.181057737
 20
46.8813202377
 30
0.0
 40
2.000000000000007
100
AcDbArc
 50
90.0
 51
100.3048464688
  0
LINE
  5
9C
330
1F
100
AcDbEntity
  8
0
  6
Continuous
 62
     7
370
    25
100
AcDbLine
 10
-33.3613976126
 20
188.8813205357
 30
0.0
 11
-125.1810583507
 21
188.8813205357
 31
0.0
  0
LINE
  5
9D
330
1F
100
AcDbEntity
  8
0
  6
Continuous
 62
     7
370
    25
100
AcDbLine
 10
-125.1810583507
 20
48.8813199397
 30
0.0
 11
-33.3613976126
 21
48.8813199397
 31
0.0
  0
LINE
  5
9E
330
1F
100
AcDbEntity
  8
0
  6
Continuous
 62
     7
370
    25
100
AcDbLine
 10
-278.3613949304
 20
198.8813184496
 30
0.0
 11
-278.3613949304
 21
38.8813220259
 31
0.0
  0
LINE
  5
9F
330
1F
100
AcDbEntity
  8
0
  6
Continuous
 62
     7
370
    25
100
AcDbLine
 10
-33.3613976126
 20
188.8813205357
 30
0.0
 11
-33.3613976126
 21
48.8813199397
 31
0.0
  0
LINE
  5
A0
330
1F
100
AcDbEntity
  8
0
  6
Continuous
 62
     1
370
    25
100
AcDbLine
 10
-180.5417369341
 20
198.8813184496
 30
0.0
 11
-180.5417369341
 21
38.8813220259
 31
0.0
  0
LINE
  5
A1
330
1F
100
AcDbEntity
  8
0
  6
Continuous
 62
     1
370
    25
100
AcDbLine
 10
-180.1839675044
 20
198.8490574356
 30
0.0
 11
-180.1839675044
 21
38.9135830398
 31
0.0
  0
LINE
  5
A2
330
1F
100
AcDbEntity
  8
0
  6
Continuous
 62
     1
370
    25
100
AcDbLine
 10
-125.5388277804
 20
188.9135815497
 30
0.0
 11
-125.5388277804
 21
48.8490589257
 31
0.0
  0
LINE
  5
A3
330
1F
100
AcDbEntity
  8
0
  6
Continuous
 62
     1
370
    25
100
AcDbLine
 10
-125.1810583507
 20
188.8813205357
 30
0.0
 11
-125.1810583507
 21
48.8813199397
 31
0.0
  0
LINE
  5
A4
330
1F
100
AcDbEntity
  8
0
  6
Continuous
 62
     7
370
    25
100
AcDbLine
 10
216.080453991
 20
388.7112904992
 30
0.0
 11
216.080453991
 21
486.5309484955
 31
0.0
  0
LINE
  5
A5
330
1F
100
AcDbEntity
  8
0
  6
Continuous
 62
     7
370
    25
100
AcDbLine
 10
56.0804575673
 20
486.5309484955
 30
0.0
 11
56.0804575673
 21
388.7112904992
 31
0.0
  0
ARC
  5
A6
330
1F
100
AcDbEntity
  8
0
  6
Continuous
 62
     7
370
    25
100
AcDbCircle
 10
214.0804557792
 20
388.7112910772
 30
0.0
 40
2.000000000000009
100
AcDbArc
 50
349.6951535312
 51
0.0
  0
ARC
  5
A7
330
1F
100
AcDbEntity
  8
0
  6
Continuous
 62
     7
370
    25
100
AcDbCircle
 10
58.0804557792
 20
388.7112910772
 30
0.0
 40
1.999999999999989
100
AcDbArc
 50
180.0
 51
190.3048464688
  0
LINE
  5
A8
330
1F
100
AcDbEntity
  8
0
  6
Continuous
 62
     7
370
    25
100
AcDbLine
 10
56.1127185813
 20
388.3535210696
 30
0.0
 11
66.0481944672
 21
333.7083813455
 31
0.0
  0
LINE
  5
A9
330
1F
100
AcDbEntity
  8
0
  6
Continuous
 62
     7
370
    25
100
AcDbLine
 10
206.1127170912
 20
333.7083813455
 30
0.0
 11
216.0481929771
 21
388.3535210696
 31
0.0
  0
ARC
  5
AA
330
1F
100
AcDbEntity
  8
0
  6
Continuous
 62
     7
370
    25
100
AcDbCircle
 10
208.0804557792
 20
333.3506113022
 30
0.0
 40
2.000000000000009
100
AcDbArc
 50
169.6951535312
 51
180.0
  0
ARC
  5
AB
330
1F
100
AcDbEntity
  8
0
  6
Continuous
 62
     7
370
    25
100
AcDbCircle
 10
64.0804557792
 20
333.3506113022
 30
0.0
 40
2.000000000000009
100
AcDbArc
 50
0.0
 51
10.3048464688
  0
LINE
  5
AC
330
1F
100
AcDbEntity
  8
0
  6
Continuous
 62
     7
370
    25
100
AcDbLine
 10
206.0804560772
 20
241.5309511777
 30
0.0
 11
206.0804560772
 21
333.3506119159
 31
0.0
  0
LINE
  5
AD
330
1F
100
AcDbEntity
  8
0
  6
Continuous
 62
     7
370
    25
100
AcDbLine
 10
66.0804554812
 20
333.3506119159
 30
0.0
 11
66.0804554812
 21
241.5309511777
 31
0.0
  0
LINE
  5
AE
330
1F
100
AcDbEntity
  8
0
  6
Continuous
 62
     7
370
    25
100
AcDbLine
 10
216.080453991
 20
486.5309484955
 30
0.0
 11
56.0804575673
 21
486.5309484955
 31
0.0
  0
LINE
  5
AF
330
1F
100
AcDbEntity
  8
0
  6
Continuous
 62
     7
370
    25
100
AcDbLine
 10
206.0804560772
 20
241.5309511777
 30
0.0
 11
66.0804554812
 21
241.5309511777
 31
0.0
  0
LINE
  5
B0
330
1F
100
AcDbEntity
  8
0
  6
Continuous
 62
     1
370
    25
100
AcDbLine
 10
216.080453991
 20
388.7112904992
 30
0.0
 11
56.0804575673
 21
388.7112904992
 31
0.0
  0
LINE
  5
B1
330
1F
100
AcDbEntity
  8
0
  6
Continuous
 62
     1
370
    25
100
AcDbLine
 10
216.0481929771
 20
388.3535210696
 30
0.0
 11
56.1127185813
 21
388.3535210696
 31
0.0
  0
LINE
  5
B2
330
1F
100
AcDbEntity
  8
0
  6
Continuous
 62
     1
370
    25
100
AcDbLine
 10
206.1127170912
 20
333.7083813455
 30
0.0
 11
66.0481944672
 21
333.7083813455
 31
0.0
  0
LINE
  5
B3
330
1F
100
AcDbEntity
  8
0
  6
Continuous
 62
     1
370
    25
100
AcDbLine
 10
206.0804560772
 20
333.3506119159
 30
0.0
 11
66.0804554812
 21
333.3506119159
 31
0.0
  0
LINE
  5
B4
330
1F
100
AcDbEntity
  8
0
  6
Continuous
 62
     7
370
    25
100
AcDbLine
 10
447.1497362827
 20
38.8813220259
 30
0.0
 11
544.969394279
 21
38.8813220259
 31
0.0
  0
LINE
  5
B5
330
1F
100
AcDbEntity
  8
0
  6
Continuous
 62
     7
370
    25
100
AcDbLine
 10
544.969394279
 20
198.8813184496
 30
0.0
 11
447.1497362827
 21
198.8813184496
 31
0.0
  0
ARC
  5
B6
330
1F
100
AcDbEntity
  8
0
  6
Continuous
 62
     7
370
    25
100
AcDbCircle
 10
447.1497368606
 20
40.8813202377
 30
0.0
 40
1.999999999999999
100
AcDbArc
 50
259.6951535312
 51
270.0
  0
ARC
  5
B7
330
1F
100
AcDbEntity
  8
0
  6
Continuous
 62
     7
370
    25
100
AcDbCircle
 10
447.1497368606
 20
196.8813202377
 30
0.0
 40
2.00000000000002
100
AcDbArc
 50
90.0
 51
100.3048464688
  0
LINE
  5
B8
330
1F
100
AcDbEntity
  8
0
  6
Continuous
 62
     7
370
    25
100
AcDbLine
 10
446.791966853
 20
198.8490574356
 30
0.0
 11
392.146827129
 21
188.9135815497
 31
0.0
  0
LINE
  5
B9
330
1F
100
AcDbEntity
  8
0
  6
Continuous
 62
     7
370
    25
100
AcDbLine
 10
392.146827129
 20
48.8490589257
 30
0.0
 11
446.791966853
 21
38.9135830398
 31
0.0
  0
ARC
  5
BA
330
1F
100
AcDbEntity
  8
0
  6
Continuous
 62
     7
370
    25
100
AcDbCircle
 10
391.7890570856
 20
46.8813202377
 30
0.0
 40
2.000000000000009
100
AcDbArc
 50
79.6951535312
 51
90.0
  0
ARC
  5
BB
330
1F
100
AcDbEntity
  8
0
  6
Continuous
 62
     7
370
    25
100
AcDbCircle
 10
391.7890570856
 20
190.8813202377
 30
0.0
 40
2.000000000000009
100
AcDbArc
 50
270.0
 51
280.3048464688
  0
LINE
  5
BC
330
1F
100
AcDbEntity
  8
0
  6
Continuous
 62
     7
370
    25
100
AcDbLine
 10
299.9693969612
 20
48.8813199397
 30
0.0
 11
391.7890576993
 21
48.8813199397
 31
0.0
  0
LINE
  5
BD
330
1F
100
AcDbEntity
  8
0
  6
Continuous
 62
     7
370
    25
100
AcDbLine
 10
391.7890576993
 20
188.8813205357
 30
0.0
 11
299.9693969612
 21
188.8813205357
 31
0.0
  0
LINE
  5
BE
330
1F
100
AcDbEntity
  8
0
  6
Continuous
 62
     7
370
    25
100
AcDbLine
 10
544.969394279
 20
118.8813202377
 30
0.0
 11
544.969394279
 21
198.8813184496
 31
0.0
  0
LINE
  5
BF
330
1F
100
AcDbEntity
  8
0
  6
Continuous
 62
     7
370
    25
100
AcDbLine
 10
544.969394279
 20
38.8813220259
 30
0.0
 11
544.969394279
 21
118.8813202377
 31
0.0
  0
LINE
  5
C0
330
1F
100
AcDbEntity
  8
0
  6
Continuous
 62
     7
370
    25
100
AcDbLine
 10
299.9693969612
 20
118.8813202377
 30
0.0
 11
299.9693969612
 21
188.8813205357
 31
0.0
  0
LINE
  5
C1
330
1F
100
AcDbEntity
  8
0
  6
Continuous
 62
     7
370
    25
100
AcDbLine
 10
299.9693969612
 20
48.8813199397
 30
0.0
 11
299.9693969612
 21
118.8813202377
 31
0.0
  0
LINE
  5
C2
330
1F
100
AcDbEntity
  8
0
  6
Continuous
 62
     1
370
    25
100
AcDbLine
 10
447.1497362827
 20
118.8813202377
 30
0.0
 11
447.1497362827
 21
198.8813184496
 31
0.0
  0
LINE
  5
C3
330
1F
100
AcDbEntity
  8
0
  6
Continuous
 62
     1
370
    25
100
AcDbLine
 10
447.1497362827
 20
38.8813220259
 30
0.0
 11
447.1497362827
 21
118.8813202377
 31
0.0
  0
LINE
  5
C4
330
1F
100
AcDbEntity
  8
0
  6
Continuous
 62
     1
370
    25
100
AcDbLine
 10
446.791966853
 20
118.8813202377
 30
0.0
 11
446.791966853
 21
198.8490574356
 31
0.0
  0
LINE
  5
C5
330
1F
100
AcDbEntity
  8
0
  6
Continuous
 62
     1
370
    25
100
AcDbLine
 10
446.791966853
 20
38.9135830398
 30
0.0
 11
446.791966853
 21
118.8813202377
 31
0.0
  0
LINE
  5
C6
330
1F
100
AcDbEntity
  8
0
  6
Continuous
 62
     1
370
    25
100
AcDbLine
 10
392.146827129
 20
118.8813202377
 30
0.0
 11
392.146827129
 21
188.9135815497
 31
0.0
  0
LINE
  5
C7
330
1F
100
AcDbEntity
  8
0
  6
Continuous
 62
     1
370
    25
100
AcDbLine
 10
392.146827129
 20
48.8490589257
 30
0.0
 11
392.146827129
 21
118.8813202377
 31
0.0
  0
LINE
  5
C8
330
1F
100
AcDbEntity
  8
0
  6
Continuous
 62
     1
370
    25
100
AcDbLine
 10
391.7890576993
 20
118.8813202377
 30
0.0
 11
391.7890576993
 21
188.8813205357
 31
0.0
  0
LINE
  5
C9
330
1F
100
AcDbEntity
  8
0
  6
Continuous
 62
     1
370
    25
100
AcDbLine
 10
391.7890576993
 20
48.8813199397
 30
0.0
 11
391.7890576993
 21
118.8813202377
 31
0.0
  0
LINE
  5
CA
330
1F
100
AcDbEntity
  8
0
  6
Continuous
 62
     7
370
    25
100
AcDbLine
 10
56.0804575673
 20
-203.4894349296
 30
0.0
 11
56.0804575673
 21
-301.3090929259
 31
0.0
  0
LINE
  5
CB
330
1F
100
AcDbEntity
  8
0
  6
Continuous
 62
     7
370
    25
100
AcDbLine
 10
216.080453991
 20
-301.3090929259
 30
0.0
 11
216.080453991
 21
-203.4894349296
 31
0.0
  0
ARC
  5
CC
330
1F
100
AcDbEntity
  8
0
  6
Continuous
 62
     7
370
    25
100
AcDbCircle
 10
58.0804557792
 20
-203.4894355075
 30
0.0
 40
1.999999999999986
100
AcDbArc
 50
169.6951535312
 51
180.0
  0
ARC
  5
CD
330
1F
100
AcDbEntity
  8
0
  6
Continuous
 62
     7
370
    25
100
AcDbCircle
 10
214.0804557792
 20
-203.4894355075
 30
0.0
 40
2.000000000000004
100
AcDbArc
 50
0.0
 51
10.3048464688
  0
LINE
  5
CE
330
1F
100
AcDbEntity
  8
0
  6
Continuous
 62
     7
370
    25
100
AcDbLine
 10
216.0481929771
 20
-203.1316654999
 30
0.0
 11
206.1127170912
 21
-148.4865257759
 31
0.0
  0
LINE
  5
CF
330
1F
100
AcDbEntity
  8
0
  6
Continuous
 62
     7
370
    25
100
AcDbLine
 10
66.0481944672
 20
-148.4865257759
 30
0.0
 11
56.1127185813
 21
-203.1316654999
 31
0.0
  0
ARC
  5
D0
330
1F
100
AcDbEntity
  8
0
  6
Continuous
 62
     7
370
    25
100
AcDbCircle
 10
64.0804557792
 20
-148.1287557325
 30
0.0
 40
2.000000000000009
100
AcDbArc
 50
349.6951535312
 51
0.0
  0
ARC
  5
D1
330
1F
100
AcDbEntity
  8
0
  6
Continuous
 62
     7
370
    25
100
AcDbCircle
 10
208.0804557792
 20
-148.1287557325
 30
0.0
 40
2.000000000000009
100
AcDbArc
 50
180.0
 51
190.3048464688
  0
LINE
  5
D2
330
1F
100
AcDbEntity
  8
0
  6
Continuous
 62
     7
370
    25
100
AcDbLine
 10
66.0804554812
 20
-56.3090956081
 30
0.0
 11
66.0804554812
 21
-148.1287563462
 31
0.0
  0
LINE
  5
D3
330
1F
100
AcDbEntity
  8
0
  6
Continuous
 62
     7
370
    25
100
AcDbLine
 10
206.0804560772
 20
-148.1287563462
 30
0.0
 11
206.0804560772
 21
-56.3090956081
 31
0.0
  0
LINE
  5
D4
330
1F
100
AcDbEntity
  8
0
  6
Continuous
 62
     7
370
    25
100
AcDbLine
 10
56.0804575673
 20
-301.3090929259
 30
0.0
 11
216.080453991
 21
-301.3090929259
 31
0.0
  0
LINE
  5
D5
330
1F
100
AcDbEntity
  8
0
  6
Continuous
 62
     7
370
    25
100
AcDbLine
 10
66.0804554812
 20
-56.3090956081
 30
0.0
 11
206.0804560772
 21
-56.3090956081
 31
0.0
  0
LINE
  5
D6
330
1F
100
AcDbEntity
  8
0
  6
Continuous
 62
     1
370
    25
100
AcDbLine
 10
56.0804575673
 20
-203.4894349296
 30
0.0
 11
216.080453991
 21
-203.4894349296
 31
0.0
  0
LINE
  5
D7
330
1F
100
AcDbEntity
  8
0
  6
Continuous
 62
     1
370
    25
100
AcDbLine
 10
56.1127185813
 20
-203.1316654999
 30
0.0
 11
216.0481929771
 21
-203.1316654999
 31
0.0
  0
LINE
  5
D8
330
1F
100
AcDbEntity
  8
0
  6
Continuous
 62
     1
370
    25
100
AcDbLine
 10
66.0481944672
 20
-148.4865257759
 30
0.0
 11
206.1127170912
 21
-148.4865257759
 31
0.0
  0
LINE
  5
D9
330
1F
100
AcDbEntity
  8
0
  6
Continuous
 62
     1
370
    25
100
AcDbLine
 10
66.0804554812
 20
-148.1287563462
 30
0.0
 11
206.0804560772
 21
-148.1287563462
 31
0.0
  0
LINE
  5
DA
330
1F
100
AcDbEntity
  8
0
  6
Continuous
 62
     7
370
    25
100
AcDbLine
 10
444.4962054938
 20
-85.1722210454
 30
0.0
 11
375.3272619913
 21
-45.2418399035
 31
0.0
  0
LINE
  5
DB
330
1F
100
AcDbEntity
  8
0
  6
Continuous
 62
     7
370
    25
100
AcDbLine
 10
295.3337657762
 20
-183.8096537957
 30
0.0
 11
364.5027092788
 21
-223.7400349377
 31
0.0
  0
LINE
  5
DC
330
1F
100
AcDbEntity
  8
0
  6
Continuous
 62
     7
370
    25
100
AcDbLine
 10
370.2450250934
 20
-226.2513390043
 30
0.0
 11
413.1722988956
 21
-239.6557562163
 31
0.0
  0
LINE
  5
DD
330
1F
100
AcDbEntity
  8
0
  6
Continuous
 62
     7
370
    25
100
AcDbLine
 10
482.6176295769
 20
-119.359881147
 30
0.0
 11
449.5425688382
 21
-88.889083988
 31
0.0
  0
LINE
  5
DE
330
1F
100
AcDbEntity
  8
0
  6
Continuous
 62
     7
370
    25
100
AcDbLine
 10
543.568827972
 20
-153.9123193542
 30
0.0
 11
480.7746335023
 21
-117.6620024965
 31
0.0
  0
LINE
  5
DF
330
1F
100
AcDbEntity
  8
0
  6
Continuous
 62
     7
370
    25
100
AcDbLine
 10
410.7803243141
 20
-238.9088426941
 30
0.0
 11
473.5745187838
 21
-275.1591595518
 31
0.0
  0
LWPOLYLINE
  5
E0
330
1F
100
AcDbEntity
  8
0
  6
Continuous
 62
     7
370
    25
100
AcDbPolyline
 90
      118
 70
   128
 43
0.0
 10
278.7619726532
 20
-147.1820705926
 10
278.8435215368
 20
-143.6286606312
 10
279.087941648
 20
-139.9913367051
 10
279.4945217589
 20
-136.2805904738
 10
280.062087026
 20
-132.5071219202
 10
280.7890095273
 20
-128.6818047504
 10
281.6731924572
 20
-124.8156715633
 10
282.7120753945
 20
-120.9198750673
 10
283.9026764497
 20
-117.0056363732
 10
285.2415553863
 20
-113.0842525948
 10
286.7248557677
 20
-109.1670223279
 10
288.3482996888
 20
-105.2652395659
 10
290.107203581
 20
-101.3901617621
 10
291.9964966516
 20
-97.5529565985
 10
294.0107340546
 20
-93.7646882995
 10
296.1441074275
 20
-90.0362780879
 10
298.3904633303
 20
-86.3784813736
 10
300.7433295877
 20
-82.8018390859
 10
303.1959179228
 20
-79.3166609436
 10
305.741160836
 20
-75.933001124
 10
308.3717168731
 20
-72.660615677
 10
311.0799996015
 20
-69.5089397143
 10
313.8582052686
 20
-66.4870531912
 10
316.6983207049
 20
-63.6036824277
 10
319.5921575679
 20
-60.8671255872
 10
322.5313720989
 20
-58.2852838566
 10
325.5074894884
 20
-55.8655987108
 10
328.5119295601
 20
-53.6150492533
 10
331.5360291611
 20
-51.5401149557
 10
334.5710694912
 20
-49.6467842156
 10
337.6082994818
 20
-47.9405226092
 10
340.638961808
 20
-46.4262396236
 10
343.6543189013
 20
-45.1083040588
 10
346.6456756693
 20
-43.9905187441
 10
349.6044081424
 20
-43.076104001
 10
352.521985535
 20
-42.3676970748
 10
355.3899955995
 20
-41.8673435818
 10
358.2001683341
 20
-41.5764777395
 10
360.9444023242
 20
-41.495943662
 10
363.614784499
 20
-41.6259778711
 10
366.2036177903
 20
-41.9661994133
 10
368.7034343034
 20
-42.5156265905
 10
371.1070269271
 20
-43.2726800057
 10
373.4074677733
 20
-44.2351749593
 10
375.5981239816
 20
-45.4003336184
 10
377.672676159
 20
-46.7647987069
 10
379.6251447213
 20
-48.3246395915
 10
381.4499030643
 20
-50.075350762
 10
383.1416828319
 20
-52.011894418
 10
384.6956160631
 20
-54.1286761375
 10
386.1072141185
 20
-56.4196026708
 10
387.3724098272
 20
-58.8780606509
 10
388.4875574869
 20
-61.4969667844
 10
389.449438132
 20
-64.2687678517
 10
390.2552753388
 20
-67.1854756901
 10
390.902756299
 20
-70.2386755608
 10
391.390005478
 20
-73.4195672111
 10
391.7156214928
 20
-76.7189781864
 10
391.8786665763
 20
-80.1273946278
 10
391.8786665763
 20
-83.6349916903
 10
391.7156214928
 20
-87.2316559781
 10
391.390005478
 20
-90.9070152019
 10
390.902756299
 20
-94.6504727796
 10
390.2552753388
 20
-98.4512382546
 10
389.449438132
 20
-102.2983459279
 10
388.4875574869
 20
-106.180710749
 10
387.3724098272
 20
-110.0871389647
 10
386.1072141185
 20
-114.0063608168
 10
384.6956160631
 20
-117.9270837737
 10
383.1416828319
 20
-121.8379986128
 10
381.4499030643
 20
-125.7278296115
 10
379.6251447213
 20
-129.5853619199
 10
377.672676159
 20
-133.399475023
 10
375.5981239816
 20
-137.1591670717
 10
373.4074677733
 20
-140.8536035518
 10
371.1070269271
 20
-144.4721309711
 10
368.7034343034
 20
-148.0043133594
 10
366.2036177903
 20
-151.4399672475
 10
363.614784499
 20
-154.7691920851
 10
360.9444023242
 20
-157.9823839264
 10
358.2001683341
 20
-161.070274972
 10
355.3899955995
 20
-164.0239655067
 10
352.521985535
 20
-166.8349459506
 10
349.6044081424
 20
-169.49510218
 10
346.6456756693
 20
-171.996767237
 10
343.6543189013
 20
-174.3327289316
 10
340.638961808
 20
-176.4962505618
 10
337.6082994818
 20
-178.481095817
 10
334.5710694912
 20
-180.2815453153
 10
331.5360291611
 20
-181.8923975517
 10
328.5119295601
 20
-183.3090143336
 10
325.5074894884
 20
-184.5273175463
 10
322.5313720989
 20
-185.5437843979
 10
319.5921575679
 20
-186.3554875311
 10
316.6983207049
 20
-186.9600836142
 10
313.8582052686
 20
-187.3558403354
 10
311.0799996015
 20
-187.5416017987
 10
308.3717168731
 20
-187.5168425159
 10
305.741160836
 20
-187.2816324213
 10
303.1959179228
 20
-186.8366475178
 10
300.7433295877
 20
-186.1831675928
 10
298.3904633303
 20
-185.3230868622
 10
296.1441074275
 20
-184.2588774673
 10
294.0107340546
 20
-182.9936077226
 10
291.9964966516
 20
-181.5309284275
 10
290.107203581
 20
-179.8750546123
 10
288.3482996888
 20
-178.0307640159
 10
286.7248557677
 20
-176.0033697077
 10
285.2415553863
 20
-173.7987216079
 10
283.9026764497
 20
-171.4231745456
 10
282.7120753945
 20
-168.8835745699
 10
281.6731924572
 20
-166.1872467819
 10
280.7890095273
 20
-163.3419694761
 10
280.062087026
 20
-160.3559391616
 10
279.4945217589
 20
-157.237767517
 10
279.087941648
 20
-153.9964486897
 10
278.8435215368
 20
-150.6413262172
 10
278.7619726532
 20
-147.1820705926
  0
LWPOLYLINE
  5
E1
330
1F
100
AcDbEntity
  8
0
  6
Continuous
 62
     7
370
    25
100
AcDbPolyline
 90
      111
 70
   128
 43
0.0
 10
285.4794848829
 20
-143.3041333266
 10
285.5607861537
 20
-139.9708172725
 10
285.8044265482
 20
-136.5545043219
 10
286.2096105447
 20
-133.0663386037
 10
286.7750210542
 20
-129.5176938575
 10
287.4988036153
 20
-125.9201532801
 10
288.3786032729
 20
-122.2854452696
 10
289.4115540413
 20
-118.6254251737
 10
290.5942789042
 20
-114.9520349846
 10
291.9229266934
 20
-111.2772531526
 10
293.3931615517
 20
-107.6130672077
 10
295.000184007
 20
-103.9714311762
 10
296.7387599473
 20
-100.3642153928
 10
298.6032100849
 20
-96.8031973738
 10
300.5874600052
 20
-93.2999842547
 10
302.6850322644
 20
-89.8660051852
 10
304.8890885364
 20
-86.5124626627
 10
307.1924401493
 20
-83.2502899482
 10
309.587569159
 20
-80.0901358587
 10
312.0666678618
 20
-77.0422993708
 10
314.6216480141
 20
-74.1167303826
 10
317.2441763937
 20
-71.3229665982
 10
319.9256985074
 20
-68.6701198417
 10
322.6574688842
 20
-66.1668403184
 10
325.4305747826
 20
-63.8213029284
 10
328.2359730695
 20
-61.6411494754
 10
331.0645116226
 20
-59.6335006453
 10
333.9069653858
 20
-57.8048926067
 10
336.7540623817
 20
-56.1612984959
 10
339.5965161449
 20
-54.7080792752
 10
342.425054698
 20
-53.4499670055
 10
345.2304529849
 20
-52.3910765414
 10
348.0035588834
 20
-51.5348540124
 10
350.7353292601
 20
-50.8840985943
 10
353.4168513738
 20
-50.4409258189
 10
356.0393797534
 20
-50.2067827871
 10
358.5943599057
 20
-50.1824344822
 10
361.0734586085
 20
-50.3679645336
 10
363.4685876183
 20
-50.7627615309
 10
365.7719392312
 20
-51.3655410798
 10
367.9759955031
 20
-52.1743343972
 10
370.0735677624
 20
-53.1865080858
 10
372.0578176827
 20
-54.3987550115
 10
373.9222678202
 20
-55.8071247221
 10
375.6608437605
 20
-57.4070234517
 10
377.2678662158
 20
-59.1932308503
 10
378.7381010742
 20
-61.15991976
 10
380.0667488633
 20
-63.3006775073
 10
381.2494737262
 20
-65.6085226361
 10
382.2824244946
 20
-68.0759231605
 10
383.1622241522
 20
-70.694836108
 10
383.8860067133
 20
-73.4567151279
 10
384.4514172228
 20
-76.3525507953
 10
384.8566012193
 20
-79.3729010289
 10
385.1002416139
 20
-82.5079127676
 10
385.1815428846
 20
-85.7473603726
 10
385.1002416139
 20
-89.0806764267
 10
384.8566012193
 20
-92.4969893773
 10
384.4514172228
 20
-95.9851550955
 10
383.8860067133
 20
-99.5337998417
 10
383.1622241522
 20
-103.1313404191
 10
382.2824244946
 20
-106.7660484296
 10
381.2494737262
 20
-110.4260685255
 10
380.0667488633
 20
-114.0994587145
 10
378.7381010742
 20
-117.7742405466
 10
377.2678662158
 20
-121.4384264915
 10
375.6608437605
 20
-125.080062523
 10
373.9222678202
 20
-128.6872783064
 10
372.0578176827
 20
-132.2482963254
 10
370.0735677624
 20
-135.7515094445
 10
367.9759955031
 20
-139.185488514
 10
365.7719392312
 20
-142.5390310365
 10
363.4685876183
 20
-145.801203751
 10
361.0734586085
 20
-148.9613578405
 10
358.5943599057
 20
-152.0091943284
 10
356.0393797534
 20
-154.9347633166
 10
353.4168513738
 20
-157.728527101
 10
350.7353292601
 20
-160.3813738575
 10
348.0035588834
 20
-162.8846533808
 10
345.2304529849
 20
-165.2301907707
 10
342.425054698
 20
-167.4103442238
 10
339.5965161449
 20
-169.4179930539
 10
336.7540623817
 20
-171.2466010925
 10
333.9069653858
 20
-172.8901952033
 10
331.0645116226
 20
-174.343414424
 10
328.2359730695
 20
-175.6015266937
 10
325.4305747826
 20
-176.6604171577
 10
322.6574688842
 20
-177.5166396867
 10
319.9256985074
 20
-178.1673951049
 10
317.2441763937
 20
-178.6105678802
 10
314.6216480141
 20
-178.8447109121
 10
312.0666678618
 20
-178.869059217
 10
309.587569159
 20
-178.6835291655
 10
307.1924401493
 20
-178.2887321683
 10
304.8890885364
 20
-177.6859526193
 10
302.6850322644
 20
-176.877159302
 10
300.5874600052
 20
-175.8649856133
 10
298.6032100849
 20
-174.6527386877
 10
296.7387599473
 20
-173.2443689771
 10
295.000184007
 20
-171.6444702475
 10
293.3931615517
 20
-169.8582628489
 10
291.9229266934
 20
-167.8915739392
 10
290.5942789042
 20
-165.7508161919
 10
289.4115540413
 20
-163.4429710631
 10
288.3786032729
 20
-160.9755705387
 10
287.4988036153
 20
-158.3566575911
 10
286.7750210542
 20
-155.5947785712
 10
286.2096105447
 20
-152.6989429039
 10
285.8044265482
 20
-149.6785926703
 10
285.5607861537
 20
-146.5435809316
 10
285.4794848829
 20
-143.3041333266
  0
ARC
  5
E2
330
1F
100
AcDbEntity
  8
0
  6
Continuous
 62
     7
370
    25
100
AcDbCircle
 10
431.0869636694
 20
-108.3921596746
 30
0.0
 40
26.81367778303629
100
AcDbArc
 50
52.0502951085
 51
59.99407088
  0
ARC
  5
E3
330
1F
100
AcDbEntity
  8
0
  6
Continuous
 62
     7
370
    25
100
AcDbCircle
 10
377.9171901933
 20
-200.4909333406
 30
0.0
 40
26.84155403987496
100
AcDbArc
 50
240.0155175226
 51
247.9068347192
  0
ARC
  5
E4
330
1F
100
AcDbEntity
  8
0
  6
Continuous
 62
     7
370
    25
100
AcDbCircle
 10
430.3861475472
 20
-109.7339981826
 30
0.0
 40
28.30957572587861
100
AcDbArc
 50
38.8793184892
 51
53.855634268
  0
ARC
  5
E5
330
1F
100
AcDbEntity
  8
0
  6
Continuous
 62
     7
370
    25
100
AcDbCircle
 10
378.6924539113
 20
-199.3198152805
 30
0.0
 40
28.22515412978304
100
AcDbArc
 50
246.1269637982
 51
261.1364258203
  0
LWPOLYLINE
  5
E6
330
1F
100
AcDbEntity
  8
0
  6
Continuous
 62
     7
370
    25
100
AcDbPolyline
 90
        3
 70
   128
 43
0.0
 10
482.6176295769
 20
-119.359881147
 10
483.4551401403
 20
-120.1687758969
 10
484.6355100481
 20
-121.4482711718
  0
LWPOLYLINE
  5
E7
330
1F
100
AcDbEntity
  8
0
  6
Continuous
 62
     7
370
    25
100
AcDbPolyline
 90
        3
 70
   128
 43
0.0
 10
415.8051176917
 20
-240.3230600171
 10
415.4409978965
 20
-240.2484807153
 10
413.1722988956
 20
-239.6557562163
  0
LWPOLYLINE
  5
E8
330
1F
100
AcDbEntity
  8
0
  6
Continuous
 62
     7
370
    25
100
AcDbPolyline
 90
       57
 70
   128
 43
0.0
 10
543.568827972
 20
-153.9123193542
 10
545.0384991162
 20
-154.8351816372
 10
546.8897283143
 20
-156.2335621876
 10
548.615971033
 20
-157.8221136537
 10
550.2115980341
 20
-159.5956506713
 10
551.6714041817
 20
-161.5483932339
 10
552.9906268818
 20
-163.6739712575
 10
554.1649697903
 20
-165.9654443546
 10
555.1905922753
 20
-168.4153474612
 10
556.0641541994
 20
-171.0156847569
 10
556.7828053817
 20
-173.7579752921
 10
557.3442014038
 20
-176.6332750429
 10
557.7465088779
 20
-179.6322065692
 10
557.9884212517
 20
-182.744984112
 10
558.0691482717
 20
-185.9614554175
 10
557.9884212517
 20
-189.2711321564
 10
557.7465088779
 20
-192.6632157807
 10
557.3442014038
 20
-196.1266416296
 10
556.7828053817
 20
-199.6501154308
 10
556.0641541994
 20
-203.2221429597
 10
555.1905922753
 20
-206.8310733843
 10
554.1649697903
 20
-210.4651350067
 10
552.9906268818
 20
-214.1124755654
 10
551.6714041817
 20
-217.7611956976
 10
550.2115980341
 20
-221.3993945623
 10
548.615971033
 20
-225.0152033014
 10
546.8897283143
 20
-228.5968321867
 10
545.0384991162
 20
-232.1325964737
 10
543.0683236092
 20
-235.6109635488
 10
540.9856265533
 20
-239.0205894296
 10
538.7972014937
 20
-242.3503491815
 10
536.510187053
 20
-245.589384064
 10
534.1320432232
 20
-248.727127385
 10
531.6705276588
 20
-251.7533455628
 10
529.1336680171
 20
-254.6581693027
 10
526.5297382515
 20
-257.4321194507
 10
523.8672335862
 20
-260.0661518583
 10
521.1548389059
 20
-262.5516756307
 10
518.4013997807
 20
-264.8805789799
 10
515.6158987575
 20
-267.0452672452
 10
512.8074201287
 20
-269.0386832329
 10
509.98512573
 20
-270.8543211872
 10
507.1582210258
 20
-272.4862585361
 10
504.335926627
 20
-273.9291723344
 10
501.5274479982
 20
-275.1783567509
 10
498.741946975
 20
-276.2297395109
 10
495.9885078498
 20
-277.0798893077
 10
493.2761131696
 20
-277.7260297737
 10
490.6136085042
 20
-278.1660598195
 10
488.0096787386
 20
-278.3985429851
 10
485.4728190969
 20
-278.422715042
 10
483.0113035325
 20
-278.2385022412
 10
480.6331597027
 20
-277.8465053412
 10
478.346145262
 20
-277.2480011267
 10
476.1577202024
 20
-276.4449431662
 10
474.0750231465
 20
-275.4399481221
 10
473.5745187838
 20
-275.1591595518
  0
LWPOLYLINE
  5
E9
330
1F
100
AcDbEntity
  8
0
  6
Continuous
 62
     1
370
    25
100
AcDbPolyline
 90
       57
 70
   128
 43
0.0
 10
447.5765579666
 20
-87.2482102762
 10
448.7940882239
 20
-88.2550207335
 10
450.6188465669
 20
-90.005731904
 10
452.3106263345
 20
-91.9422755599
 10
453.8645595656
 20
-94.0590572795
 10
455.276157621
 20
-96.3499838128
 10
456.5413533298
 20
-98.8084417929
 10
457.6565009894
 20
-101.4273479263
 10
458.6183816345
 20
-104.1991489936
 10
459.4242188413
 20
-107.1158568321
 10
460.0716998016
 20
-110.1690567027
 10
460.5589489805
 20
-113.3499483531
 10
460.8845649954
 20
-116.6493593284
 10
461.0476100788
 20
-120.0577757697
 10
461.0476100788
 20
-123.5653728323
 10
460.8845649954
 20
-127.16203712
 10
460.5589489805
 20
-130.8373963438
 10
460.0716998016
 20
-134.5808539216
 10
459.4242188413
 20
-138.3816193966
 10
458.6183816345
 20
-142.2287270699
 10
457.6565009894
 20
-146.111091891
 10
456.5413533298
 20
-150.0175201066
 10
455.276157621
 20
-153.9367419588
 10
453.8645595656
 20
-157.8574649156
 10
452.3106263345
 20
-161.7683797547
 10
450.6188465669
 20
-165.6582107534
 10
448.7940882239
 20
-169.5157430618
 10
446.8416196615
 20
-173.3298561649
 10
444.7670674841
 20
-177.0895482137
 10
442.5764112758
 20
-180.7839846937
 10
440.2759704296
 20
-184.4025121131
 10
437.8723778059
 20
-187.9346945013
 10
435.3725612928
 20
-191.3703483895
 10
432.7837280016
 20
-194.699573227
 10
430.1133458268
 20
-197.9127650683
 10
427.3691118366
 20
-201.0006561139
 10
424.558939102
 20
-203.9543466487
 10
421.6909290375
 20
-206.7653270925
 10
418.7733516449
 20
-209.4254833219
 10
415.8146191718
 20
-211.9271483789
 10
412.8232624038
 20
-214.2631100735
 10
409.8079053105
 20
-216.4266317037
 10
406.7772429843
 20
-218.411476959
 10
403.7400129937
 20
-220.2119264572
 10
400.7049726636
 20
-221.8227786936
 10
397.6808730627
 20
-223.2393954756
 10
394.6764329909
 20
-224.4576986883
 10
391.7003156014
 20
-225.4741655398
 10
388.7611010705
 20
-226.285868673
 10
385.8672642074
 20
-226.8904647562
 10
383.0271487711
 20
-227.2862214773
 10
380.248943104
 20
-227.4719829407
 10
377.5406603757
 20
-227.4472236579
 10
374.9101043385
 20
-227.2120135632
 10
372.3648614253
 20
-226.7670286597
 10
369.9122730902
 20
-226.1135487348
 10
367.8217130129
 20
-225.3616061055
  0
ARC
  5
EA
330
1F
100
AcDbEntity
  8
0
  6
Continuous
 62
     1
370
    25
100
AcDbCircle
 10
473.8817001477
 20
-194.5096411547
 30
0.0
 40
121.0411244684846
100
AcDbArc
 50
143.0756950562
 51
156.9296832689
  0
LWPOLYLINE
  5
EB
330
1F
100
AcDbEntity
  8
0
  6
Continuous
 62
     1
370
    25
100
AcDbPolyline
 90
       53
 70
   128
 43
0.0
 10
452.4242963849
 20
-91.9645841915
 10
452.5443306094
 20
-92.1135245073
 10
454.0976316379
 20
-94.229457491
 10
455.5086607108
 20
-96.519459248
 10
456.7733506574
 20
-98.9769224952
 10
457.8880452384
 20
-101.5947745845
 10
458.8495360252
 20
-104.3654607767
 10
459.6550518623
 20
-107.2809898675
 10
460.3022694047
 20
-110.3329592845
 10
460.7893236545
 20
-113.5125672551
 10
461.1148079604
 20
-116.8106481685
 10
461.2777845553
 20
-120.2176919679
 10
461.2777845553
 20
-123.7238745695
 10
461.1148079604
 20
-127.31908714
 10
460.7893236545
 20
-130.992964234
 10
460.3022694047
 20
-134.7349130716
 10
459.6550518623
 20
-138.5341439572
 10
458.8495360252
 20
-142.3797018373
 10
457.8880452384
 20
-146.2605016624
 10
456.7733506574
 20
-150.1653527205
 10
455.5086607108
 20
-154.0829958991
 10
454.0976316379
 20
-158.0021371466
 10
452.5443306094
 20
-161.911473324
 10
450.8532304598
 20
-165.7997347911
 10
449.0292096867
 20
-169.6557127825
 10
447.0775261094
 20
-173.4682867824
 10
445.0038089664
 20
-177.2264655883
 10
442.8140378419
 20
-180.9194116442
 10
440.5145242264
 20
-184.5364790618
 10
438.1119009802
 20
-188.0672379545
 10
435.6130907231
 20
-191.5015078946
 10
433.0253032005
 20
-194.8293868109
 10
430.3559984045
 20
-198.0412814037
 10
427.6128707692
 20
-201.1279314776
 10
424.8038307311
 20
-204.0804327547
 10
421.9369783878
 20
-206.8902764151
 10
419.0205771557
 20
-209.5493582209
 10
416.0630379653
 20
-212.0500180579
 10
413.0728869923
 20
-214.38503423
 10
410.0587459014
 20
-216.5476835333
 10
407.0293056692
 20
-218.5317320331
 10
403.993300489
 20
-220.3314501286
 10
400.9594839816
 20
-221.9416567042
 10
397.9366036758
 20
-223.3577034435
 10
394.933375326
 20
-224.5755139899
 10
391.9584584631
 20
-225.5915676426
 10
389.0204293123
 20
-226.4029454089
 10
386.1277593901
 20
-227.0072997743
 10
383.2887885041
 20
-227.4028946243
 10
380.5117049969
 20
-227.5885801466
 10
377.8045128182
 20
-227.5638300917
 10
375.1750183549
 20
-227.3287189569
 10
374.3434583996
 20
-227.2079052776
  0
LWPOLYLINE
  5
EC
330
1F
100
AcDbEntity
  8
0
  6
Continuous
 62
     1
370
    25
100
AcDbPolyline
 90
       50
 70
   128
 43
0.0
 10
484.6355100481
 20
-121.4482711718
 10
485.0515020771
 20
-121.9431327624
 10
486.5119825742
 20
-123.8967727345
 10
487.8318137695
 20
-126.0233287705
 10
489.0066940502
 20
-128.3158604824
 10
490.0327906874
 20
-130.7668921604
 10
490.9067530065
 20
-133.3684279832
 10
491.6257360952
 20
-136.1119824389
 10
492.1873902668
 20
-138.9886084612
 10
492.5898874017
 20
-141.9889187245
 10
492.831910411
 20
-145.1031316514
 10
492.9126743094
 20
-148.3210854828
 10
492.831910411
 20
-151.6322873265
 10
492.5898874017
 20
-155.0259340719
 10
492.1873902668
 20
-158.4909576355
 10
491.6257360952
 20
-162.0160557612
 10
490.9067530065
 20
-165.5897304216
 10
490.0327906874
 20
-169.2003216597
 10
489.0066940502
 20
-172.8360592977
 10
487.8318137695
 20
-176.4850789081
 10
486.5119825742
 20
-180.1354796062
 10
485.0515020771
 20
-183.7753544678
 10
483.4551401403
 20
-187.3928315935
 10
481.7281018998
 20
-190.9761121296
 10
479.8760192281
 20
-194.5135067689
 10
477.9049349296
 20
-197.9934752937
 10
475.8212790329
 20
-201.4046706799
 10
473.6318450832
 20
-204.735967993
 10
471.3437769712
 20
-207.976493284
 10
468.9645373234
 20
-211.1156844235
 10
466.5018864282
 20
-214.1432971837
 10
463.9638572115
 20
-217.0494561867
 10
461.3587288949
 20
-219.8246883626
 10
458.6949980197
 20
-222.4599335935
 10
455.9813521049
 20
-224.9465994638
 10
453.2266439644
 20
-227.2765760872
 10
450.4398587794
 20
-229.4422672826
 10
447.6300864399
 20
-231.4366004573
 10
444.8064912511
 20
-233.2530745135
 10
441.9782836166
 20
-234.8857640281
 10
439.1546884279
 20
-236.3293435847
 10
436.3449160883
 20
-237.5791045007
 10
433.5581309034
 20
-238.6309669923
 10
430.8034227629
 20
-239.4815086887
 10
428.0897768481
 20
-240.1279517015
 10
425.4260459728
 20
-240.5681846758
 10
422.8209176562
 20
-240.800769631
 10
420.2828884395
 20
-240.8249567874
 10
417.8202375443
 20
-240.6406602292
 10
415.8051176917
 20
-240.3230600171
  0
ARC
  5
ED
330
1F
100
AcDbEntity
  8
0
  6
Continuous
 62
     1
370
    25
100
AcDbCircle
 10
474.7698160587
 20
-195.0223354976
 30
0.0
 40
121.2891771140324
100
AcDbArc
 50
144.8255326091
 51
155.1798496656
  0
LWPOLYLINE
  5
EE
330
1F
100
AcDbEntity
  8
0
  6
Continuous
 62
     1
370
    25
100
AcDbPolyline
 90
       54
 70
   128
 43
0.0
 10
481.9095467168
 20
-118.7075547098
 10
481.9634235601
 20
-118.7524042619
 10
483.6896662789
 20
-120.340955728
 10
485.2852932799
 20
-122.1144927456
 10
486.7450994275
 20
-124.0672353082
 10
488.0643221277
 20
-126.1928133318
 10
489.2386650361
 20
-128.4842864289
 10
490.2642875212
 20
-130.9341895355
 10
491.1378494452
 20
-133.5345268312
 10
491.8565006275
 20
-136.2768173664
 10
492.4178966497
 20
-139.1521171172
 10
492.8202041238
 20
-142.1510486435
 10
493.0621164975
 20
-145.2638261863
 10
493.1428435175
 20
-148.4802974918
 10
493.0621164975
 20
-151.7899742307
 10
492.8202041238
 20
-155.182057855
 10
492.4178966497
 20
-158.6454837039
 10
491.8565006275
 20
-162.1689575051
 10
491.1378494452
 20
-165.740985034
 10
490.2642875212
 20
-169.3499154586
 10
489.2386650361
 20
-172.9839770809
 10
488.0643221277
 20
-176.6313176397
 10
486.7450994275
 20
-180.2800377719
 10
485.2852932799
 20
-183.9182366366
 10
483.6896662789
 20
-187.5340453757
 10
481.9634235601
 20
-191.115674261
 10
480.1121943621
 20
-194.651438548
 10
478.142018855
 20
-198.1298056231
 10
476.0593217991
 20
-201.5394315039
 10
473.8708967396
 20
-204.8691912558
 10
471.5838822988
 20
-208.1082261383
 10
469.2057384691
 20
-211.2459694593
 10
466.7442229046
 20
-214.2721876371
 10
464.207363263
 20
-217.177011377
 10
461.6034334974
 20
-219.950961525
 10
458.940928832
 20
-222.5849939326
 10
456.2285341518
 20
-225.070517705
 10
453.4750950265
 20
-227.3994210542
 10
450.6895940034
 20
-229.5641093195
 10
447.8811153745
 20
-231.5575253072
 10
445.0588209758
 20
-233.3731632615
 10
442.2319162716
 20
-235.0051006104
 10
439.4096218729
 20
-236.4480144087
 10
436.601143244
 20
-237.6971988252
 10
433.8156422209
 20
-238.7485815852
 10
431.0622030956
 20
-239.598731382
 10
428.3498084154
 20
-240.244871848
 10
425.68730375
 20
-240.6849018938
 10
423.0833739844
 20
-240.9173850594
 10
420.5465143428
 20
-240.9415571163
 10
418.0849987783
 20
-240.7573443155
 10
415.7068549485
 20
-240.3653474155
 10
413.4198405078
 20
-239.766843201
 10
412.2532974005
 20
-239.3687911142
  0
ENDSEC
  0
SECTION
  2
OBJECTS
  0
DICTIONARY
  5
C
330
0
100
AcDbDictionary
281
     1
  3
ACAD_GROUP
350
D
  3
ACAD_LAYOUT
350
1A
  3
ACAD_MLINESTYLE
350
17
  3
ACAD_PLOTSETTINGS
350
19
  3
ACAD_PLOTSTYLENAME
350
E
  3
ACAD_SCALELIST
350
47
  0
DICTIONARY
  5
D
102
{ACAD_REACTORS
330
C
102
}
330
C
100
AcDbDictionary
281
     1
  0
DICTIONARY
  5
1A
102
{ACAD_REACTORS
330
C
102
}
330
C
100
AcDbDictionary
281
     1
  3
Layout1
350
1E
  3
Layout2
350
26
  3
Model
350
22
  0
DICTIONARY
  5
17
102
{ACAD_REACTORS
330
C
102
}
330
C
100
AcDbDictionary
281
     1
  3
Standard
350
18
  0
DICTIONARY
  5
19
102
{ACAD_REACTORS
330
C
102
}
330
C
100
AcDbDictionary
281
     1
  0
ACDBDICTIONARYWDFLT
  5
E
102
{ACAD_REACTORS
330
C
102
}
330
C
100
AcDbDictionary
281
     1
  3
Normal
350
F
100
AcDbDictionaryWithDefault
340
F
  0
DICTIONARY
  5
47
102
{ACAD_REACTORS
330
C
102
}
330
C
100
AcDbDictionary
281
     1
  3
A0
350
48
  3
A1
350
49
  3
A2
350
4A
  3
A3
350
4B
  3
A4
350
4C
  3
A5
350
4D
  3
A6
350
4E
  3
A7
350
4F
  3
A8
350
50
  3
A9
350
51
  3
B0
350
52
  3
B1
350
53
  3
B2
350
54
  3
B3
350
55
  3
B4
350
56
  3
B5
350
57
  3
B6
350
58
  3
B7
350
59
  3
B8
350
5A
  3
B9
350
5B
  3
C0
350
5C
  3
C1
350
5D
  3
C2
350
5E
  3
C3
350
5F
  3
C4
350
60
  3
C5
350
61
  3
C6
350
62
  3
C7
350
63
  3
C8
350
64
  3
C9
350
65
  3
D0
350
66
  3
D1
350
67
  3
D2
350
68
  0
LAYOUT
  5
1E
102
{ACAD_REACTORS
330
1A
102
}
330
1A
100
AcDbPlotSettings
  1

  2
none_device
  4

  6

 40
0.0
 41
0.0
 42
0.0
 43
0.0
 44
0.0
 45
0.0
 46
0.0
 47
0.0
 48
0.0
 49
0.0
140
0.0
141
0.0
142
1.0
143
1.0
 70
   688
 72
     1
 73
     0
 74
     5
  7

 75
    16
147
1.0
148
0.0
149
0.0
100
AcDbLayout
  1
Layout1
 70
     1
 71
     1
 10
0.0
 20
0.0
 11
420.0
 21
297.0
 12
0.0
 22
0.0
 32
0.0
 14
1.0000000000E+20
 24
1.0000000000E+20
 34
1.0000000000E+20
 15
-1.0000000000E+20
 25
-1.0000000000E+20
 35
-1.0000000000E+20
146
0.0
 13
0.0
 23
0.0
 33
0.0
 16
1.0
 26
0.0
 36
0.0
 17
0.0
 27
1.0
 37
0.0
 76
     0
330
1B
  0
LAYOUT
  5
26
102
{ACAD_REACTORS
330
1A
102
}
330
1A
100
AcDbPlotSettings
  1

  2
none_device
  4

  6

 40
0.0
 41
0.0
 42
0.0
 43
0.0
 44
0.0
 45
0.0
 46
0.0
 47
0.0
 48
0.0
 49
0.0
140
0.0
141
0.0
142
1.0
143
1.0
 70
   688
 72
     1
 73
     0
 74
     5
  7

 75
    16
147
1.0
148
0.0
149
0.0
100
AcDbLayout
  1
Layout2
 70
     1
 71
     2
 10
0.0
 20
0.0
 11
0.0
 21
0.0
 12
0.0
 22
0.0
 32
0.0
 14
0.0
 24
0.0
 34
0.0
 15
0.0
 25
0.0
 35
0.0
146
0.0
 13
0.0
 23
0.0
 33
0.0
 16
1.0
 26
0.0
 36
0.0
 17
0.0
 27
1.0
 37
0.0
 76
     0
330
23
  0
LAYOUT
  5
22
102
{ACAD_REACTORS
330
1A
102
}
330
1A
100
AcDbPlotSettings
  1

  2
none_device
  4
Letter_(8.50_x_11.00_Inches)
  6

 40
6.35
 41
6.35
 42
6.35000508
 43
6.35000508
 44
215.9
 45
279.4
 46
0.0
 47
0.0
 48
0.0
 49
0.0
140
0.0
141
0.0
142
1.0
143
1.0
 70
  1712
 72
     1
 73
     0
 74
     0
  7

 75
     0
147
1.0
148
0.0
149
0.0
100
AcDbLayout
  1
Model
 70
     1
 71
     0
 10
0.0
 20
0.0
 11
279.4
 21
215.9
 12
0.0
 22
0.0
 32
0.0
 14
0.0
 24
0.0
 34
0.0
 15
279.4
 25
215.9
 35
0.0
146
0.0
 13
0.0
 23
0.0
 33
0.0
 16
1.0
 26
0.0
 36
0.0
 17
0.0
 27
1.0
 37
0.0
 76
     0
330
1F
331
29
  0
MLINESTYLE
  5
18
102
{ACAD_REACTORS
330
17
102
}
330
17
100
AcDbMlineStyle
  2
Standard
 70
     0
  3

 62
   256
 51
90.0
 52
90.0
 71
     2
 49
0.5
 62
   256
  6
BYLAYER
 49
-0.5
 62
   256
  6
BYLAYER
  0
ACDBPLACEHOLDER
  5
F
102
{ACAD_REACTORS
330
E
102
}
330
E
  0
SCALE
  5
48
102
{ACAD_REACTORS
330
47
102
}
330
47
100
AcDbScale
 70
     0
300
1:1
140
1.0
141
1.0
290
     1
  0
SCALE
  5
49
102
{ACAD_REACTORS
330
47
102
}
330
47
100
AcDbScale
 70
     0
300
1:2
140
1.0
141
2.0
290
     0
  0
SCALE
  5
4A
102
{ACAD_REACTORS
330
47
102
}
330
47
100
AcDbScale
 70
     0
300
1:4
140
1.0
141
4.0
290
     0
  0
SCALE
  5
4B
102
{ACAD_REACTORS
330
47
102
}
330
47
100
AcDbScale
 70
     0
300
1:5
140
1.0
141
5.0
290
     0
  0
SCALE
  5
4C
102
{ACAD_REACTORS
330
47
102
}
330
47
100
AcDbScale
 70
     0
300
1:8
140
1.0
141
8.0
290
     0
  0
SCALE
  5
4D
102
{ACAD_REACTORS
330
47
102
}
330
47
100
AcDbScale
 70
     0
300
1:10
140
1.0
141
10.0
290
     0
  0
SCALE
  5
4E
102
{ACAD_REACTORS
330
47
102
}
330
47
100
AcDbScale
 70
     0
300
1:16
140
1.0
141
16.0
290
     0
  0
SCALE
  5
4F
102
{ACAD_REACTORS
330
47
102
}
330
47
100
AcDbScale
 70
     0
300
1:20
140
1.0
141
20.0
290
     0
  0
SCALE
  5
50
102
{ACAD_REACTORS
330
47
102
}
330
47
100
AcDbScale
 70
     0
300
1:30
140
1.0
141
30.0
290
     0
  0
SCALE
  5
51
102
{ACAD_REACTORS
330
47
102
}
330
47
100
AcDbScale
 70
     0
300
1:40
140
1.0
141
40.0
290
     0
  0
SCALE
  5
52
102
{ACAD_REACTORS
330
47
102
}
330
47
100
AcDbScale
 70
     0
300
1:50
140
1.0
141
50.0
290
     0
  0
SCALE
  5
53
102
{ACAD_REACTORS
330
47
102
}
330
47
100
AcDbScale
 70
     0
300
1:100
140
1.0
141
100.0
290
     0
  0
SCALE
  5
54
102
{ACAD_REACTORS
330
47
102
}
330
47
100
AcDbScale
 70
     0
300
2:1
140
2.0
141
1.0
290
     0
  0
SCALE
  5
55
102
{ACAD_REACTORS
330
47
102
}
330
47
100
AcDbScale
 70
     0
300
4:1
140
4.0
141
1.0
290
     0
  0
SCALE
  5
56
102
{ACAD_REACTORS
330
47
102
}
330
47
100
AcDbScale
 70
     0
300
8:1
140
8.0
141
1.0
290
     0
  0
SCALE
  5
57
102
{ACAD_REACTORS
330
47
102
}
330
47
100
AcDbScale
 70
     0
300
10:1
140
10.0
141
1.0
290
     0
  0
SCALE
  5
58
102
{ACAD_REACTORS
330
47
102
}
330
47
100
AcDbScale
 70
     0
300
100:1
140
100.0
141
1.0
290
     0
  0
SCALE
  5
59
102
{ACAD_REACTORS
330
47
102
}
330
47
100
AcDbScale
 70
     0
300
1/128" = 1'-0"
140
0.0078125
141
12.0
290
     0
  0
SCALE
  5
5A
102
{ACAD_REACTORS
330
47
102
}
330
47
100
AcDbScale
 70
     0
300
1/64" = 1'-0"
140
0.015625
141
12.0
290
     0
  0
SCALE
  5
5B
102
{ACAD_REACTORS
330
47
102
}
330
47
100
AcDbScale
 70
     0
300
1/32" = 1'-0"
140
0.03125
141
12.0
290
     0
  0
SCALE
  5
5C
102
{ACAD_REACTORS
330
47
102
}
330
47
100
AcDbScale
 70
     0
300
1/16" = 1'-0"
140
0.0625
141
12.0
290
     0
  0
SCALE
  5
5D
102
{ACAD_REACTORS
330
47
102
}
330
47
100
AcDbScale
 70
     0
300
3/32" = 1'-0"
140
0.09375
141
12.0
290
     0
  0
SCALE
  5
5E
102
{ACAD_REACTORS
330
47
102
}
330
47
100
AcDbScale
 70
     0
300
1/8" = 1'-0"
140
0.125
141
12.0
290
     0
  0
SCALE
  5
5F
102
{ACAD_REACTORS
330
47
102
}
330
47
100
AcDbScale
 70
     0
300
3/16" = 1'-0"
140
0.1875
141
12.0
290
     0
  0
SCALE
  5
60
102
{ACAD_REACTORS
330
47
102
}
330
47
100
AcDbScale
 70
     0
300
1/4" = 1'-0"
140
0.25
141
12.0
290
     0
  0
SCALE
  5
61
102
{ACAD_REACTORS
330
47
102
}
330
47
100
AcDbScale
 70
     0
300
3/8" = 1'-0"
140
0.375
141
12.0
290
     0
  0
SCALE
  5
62
102
{ACAD_REACTORS
330
47
102
}
330
47
100
AcDbScale
 70
     0
300
1/2" = 1'-0"
140
0.5
141
12.0
290
     0
  0
SCALE
  5
63
102
{ACAD_REACTORS
330
47
102
}
330
47
100
AcDbScale
 70
     0
300
3/4" = 1'-0"
140
0.75
141
12.0
290
     0
  0
SCALE
  5
64
102
{ACAD_REACTORS
330
47
102
}
330
47
100
AcDbScale
 70
     0
300
1" = 1'-0"
140
1.0
141
12.0
290
     0
  0
SCALE
  5
65
102
{ACAD_REACTORS
330
47
102
}
330
47
100
AcDbScale
 70
     0
300
1-1/2" = 1'-0"
140
1.5
141
12.0
290
     0
  0
SCALE
  5
66
102
{ACAD_REACTORS
330
47
102
}
330
47
100
AcDbScale
 70
     0
300
3" = 1'-0"
140
3.0
141
12.0
290
     0
  0
SCALE
  5
67
102
{ACAD_REACTORS
330
47
102
}
330
47
100
AcDbScale
 70
     0
300
6" = 1'-0"
140
6.0
141
12.0
290
     0
  0
SCALE
  5
68
102
{ACAD_REACTORS
330
47
102
}
330
47
100
AcDbScale
 70
     0
300
1'-0" = 1'-0"
140
12.0
141
12.0
290
     0
  0
ENDSEC
  0
EOF
